Miike Snow – “Cult Logic” Guitar Tab

When I first arrived in San Francisco, I recorded a sparse version of Miike Snow’s “Cult Logic” at Rachel’s place. My playing style gets quieter as my listening tastes get louder, and I frequently find myself deconstructing electronic songs.

So far over 25,000 people have watched it on YouTube. Many have asked how to play it, so I’m posting a tab and how-to video here for those who’ve watched, commented, and liked. I’m blown away by your enthusiasm, and I’m truly grateful that you enjoy it!

I promise to post more music too. Again, thank you!

Here’s the original, and the how-to is below the tab.


Lead

[-------5-----2-----------5---5-7---------------------------------]
[-3--3----3-------0---0-7---7-----7---7---5---3---2---------------]
[-----------------------------------------------------2---2---2---]
[-------------------------------------------------------0---0---0-]
[-----------------------------------------------------------------]
[---3---3---3---3---3---7---7---5---5---3---3---3---3-------------]

[-------5-----2-----------5---5-7---------------------2^3^2-------]
[-3--3----3-------0---0-7---7-----7---7---5---3---5---------------]
[-----------------------------------------------------------------]
[-------------------------------------------------------0---0---0-]
[-----------------------------------------------------------------]
[---3---3---3---3---3---7---7---5---5---3---3---3---3-------------]

Chords

[---------------2---]
[---3---7---5---2---]
[---4---7---6---2---]
[---4---7---7---0---]
[-------------------]
[---3---7---5-------]
....G Bm A D

9 thoughts on “Miike Snow – “Cult Logic” Guitar Tab”

  1. Fantastic! This is amazing and thank you so much for posting the video of you playing it up close!

Comments are closed.